Adventure Intro tab by Izzamuzzic

Adventure Intro tab by Izzamuzzic

 

e|--1-----1----1-----1--------------------------------------------------------------------|
B|------3----------3------0-----0----0-----0----1-----1----1-----1----1-----1----1---0----|
G|----2-----2----2-----2------0----------0----------2----------2----------2---------------|
D|--0-----------------------0-----0----0-----0----2-----2----2-----2----2-----2----2---0--|
A|----------------------------------------------0---------------------0----------3---2----|
E|------------------------3---------------------------------------------------------------|
 
e|--1-----1----3-----1--------------------------------------------------------------------|
B|------3----------3------0-----0----3-----0----1-----1----0-----0----1-----1----1---0----|
G|----2-----2----2-----2------0----------0----------2----------2----------2---------------|
D|--0-----------------------0-----0----0-----0----2-----2----2-----2----2-----2----2---0--|
A|----------------------------------------------0---------------------0----------3---2----|
E|------------------------3---------------------------------------------------------------|
Advertisements by Google
Back to Top
Close Zoom
I've disabled context menu to protect my data. If you want to copy some data contact me before.
%d bloggers like this: